0
SECTION
2
HEADER
9
$INSUNITS
70
4
9
$ACADVER
1
AC1014
9
$HANDSEED
5
FFFF
0
ENDSEC
0
SECTION
2
TABLES
0
TABLE
2
VPORT
5
8
100
AcDbSymbolTable
0
ENDTAB
0
TABLE
2
LTYPE
5
5
100
AcDbSymbolTable
0
LTYPE
5
14
100
AcDbSymbolTableRecord
100
AcDbLinetypeTableRecord
2
BYBLOCK
70
0
0
LTYPE
5
15
100
AcDbSymbolTableRecord
100
AcDbLinetypeTableRecord
2
BYLAYER
70
0
0
ENDTAB
0
TABLE
2
LAYER
5
2
100
AcDbSymbolTable
70
2
0
LAYER
5
50
100
AcDbSymbolTableRecord
100
AcDbLayerTableRecord
2
0
70
0
6
CONTINUOUS
0
ENDTAB
0
TABLE
2
STYLE
5
3
100
AcDbSymbolTable
70
1
0
STYLE
5
11
100
AcDbSymbolTableRecord
100
AcDbTextStyleTableRecord
2
STANDARD
70
0
0
ENDTAB
0
TABLE
2
VIEW
5
6
100
AcDbSymbolTable
70
0
0
ENDTAB
0
TABLE
2
UCS
5
7
100
AcDbSymbolTable
70
0
0
ENDTAB
0
TABLE
2
APPID
5
9
100
AcDbSymbolTable
70
2
0
APPID
5
12
100
AcDbSymbolTableRecord
100
AcDbRegAppTableRecord
2
ACAD
70
0
0
ENDTAB
0
TABLE
2
DIMSTYLE
5
A
100
AcDbSymbolTable
70
1
0
ENDTAB
0
TABLE
2
BLOCK_RECORD
5
1
100
AcDbSymbolTable
70
1
0
BLOCK_RECORD
5
1F
100
AcDbSymbolTableRecord
100
AcDbBlockTableRecord
2
*MODEL_SPACE
0
BLOCK_RECORD
5
1B
100
AcDbSymbolTableRecord
100
AcDbBlockTableRecord
2
*PAPER_SPACE
0
ENDTAB
0
ENDSEC
0
SECTION
2
BLOCKS
0
BLOCK
5
20
100
AcDbEntity
100
AcDbBlockBegin
2
*MODEL_SPACE
0
ENDBLK
5
21
100
AcDbEntity
100
AcDbBlockEnd
0
BLOCK
5
1C
100
AcDbEntity
100
AcDbBlockBegin
2
*PAPER_SPACE
0
ENDBLK
5
1D
100
AcDbEntity
100
AcDbBlockEnd
0
ENDSEC
0
SECTION
2
ENTITIES
0
LWPOLYLINE
5
100
100
AcDbEntity
8
0
100
AcDbPolyline
90
5
70
1
43
0.0
10
-0.071667890611308849
20
245.5495207290376
10
-0.071667890611308849
20
0.54952072903796889
10
293.92833210938824
20
0.54952072903794669
42
0.93279845846884724
10
240.97733495933403
20
75.50269102450406
42
-0.53812255539675435
10
67.191926244973956
20
245.54952072903774
0
LINE
5
101
100
AcDbEntity
8
0
100
AcDbLine
10
21.642019342563614
20
34.350302990356205
30
0
11
27.219743967951473
21
19.360872497472304
31
0
0
LWPOLYLINE
5
102
100
AcDbEntity
8
0
100
AcDbPolyline
90
12
70
1
43
0.0
10
49.402491860404965
20
18.548991434553063
10
44.402491785899301
20
18.548991434553063
10
44.402491785899301
20
13.548991360047339
10
59.402492009416363
20
13.548991360047321
10
59.402492009416434
20
18.548991434553045
10
54.402491934910699
20
18.548991434553045
10
54.402491934910699
20
28.548991583564508
10
59.402492009416434
20
28.548991583564508
10
59.402492009416434
20
33.548991360047012
10
44.402491785899301
20
33.54899165807025
10
44.402491785899301
20
28.548991583564526
10
49.402491860404965
20
28.548991583564526
0
LINE
5
103
100
AcDbEntity
8
0
100
AcDbLine
10
38.154088063230915
20
34.350302990356184
30
0
11
32.797468593339332
21
34.350302990356184
31
0
0
LWPOLYLINE
5
104
100
AcDbEntity
8
0
100
AcDbPolyline
90
4
70
1
43
0.0
10
12.068464613063199
20
151.55118893297609
10
12.068464613063199
20
121.55118893297613
10
74.068464613063156
20
121.55118893297613
10
74.068464613063156
20
151.55118893297609
0
LWPOLYLINE
5
105
100
AcDbEntity
8
0
100
AcDbPolyline
90
8
70
1
43
0.0
10
39.624020168618721
20
163.49586978618038
42
-0.18685994898545707
10
29.512909057507741
20
163.49586978618035
10
13.860131279729869
20
169.55726796147837
42
-0.68511878904466827
10
13.860131279729941
20
183.54510990447378
10
29.512909057507724
20
189.60650807977174
42
-0.1868599489854588
10
39.624020168618799
20
189.60650807977171
10
55.276797946396464
20
183.54510990447375
42
-0.68511878904466783
10
55.276797946396528
20
169.55726796147837
0
LINE
5
106
100
AcDbEntity
8
0
100
AcDbLine
10
65.449286056534604
20
201.63802372903771
30
0
11
11.884639109388715
21
201.63802372903771
31
0
0
LINE
5
107
100
AcDbEntity
8
0
100
AcDbLine
10
11.884639109388715
20
231.63802372903763
30
0
11
65.191390729224139
21
231.63802372903763
31
0
0
LINE
5
108
100
AcDbEntity
8
0
100
AcDbLine
10
293.57147316311102
20
77.076044043818456
30
0
11
293.57147316311102
21
76.549520729037823
31
0
0
CIRCLE
5
109
100
AcDbEntity
8
0
100
AcDbCircle
10
34.568464613063199
20
176.55118893297606
30
0
40
5.0000000000000053
0
CIRCLE
5
110
100
AcDbEntity
8
0
100
AcDbCircle
10
34.384639109388715
20
216.63802372903768
30
0
40
4.9999999999999902
0
LINE
5
111
100
AcDbEntity
8
0
100
AcDbLine
10
32.797468593339332
20
34.350302990356184
30
0
11
27.219743967951473
21
19.360872497472304
31
0
0
LINE
5
112
100
AcDbEntity
8
0
100
AcDbLine
10
23.719743967951459
20
14.371442153599915
30
0
11
30.719743967951416
21
14.37144215359988
31
0
0
LINE
5
113
100
AcDbEntity
8
0
100
AcDbLine
10
38.154088063230915
20
34.350302990356184
30
0
11
30.719743967951416
21
14.37144215359988
31
0
0
CIRCLE
5
114
100
AcDbEntity
8
0
100
AcDbCircle
10
34.568464613063199
20
136.55118893297609
30
0
40
5.0000000000000071
0
LINE
5
115
100
AcDbEntity
8
0
100
AcDbLine
10
16.285399872672102
20
34.350302990356205
30
0
11
21.642019342563614
21
34.350302990356205
31
0
0
LINE
5
116
100
AcDbEntity
8
0
100
AcDbLine
10
16.285399872672102
20
34.350302990356205
30
0
11
23.719743967951459
21
14.371442153599915
31
0
0
LINE
5
117
100
AcDbEntity
8
0
100
AcDbLine
10
11.884639109388715
20
201.63802372903771
30
0
11
11.884639109388715
21
231.63802372903763
31
0
0
ARC
5
118
100
AcDbEntity
8
0
100
AcDbCircle
10
34.568464613063199
20
176.55118893297606
30
0
40
13.999999999999925
100
AcDbArc
50
248.8315511541679
51
291.16844884583236
0
ARC
5
119
100
AcDbEntity
8
0
100
AcDbCircle
10
34.568464613063199
20
176.55118893297606
30
0
40
13.999999999999947
100
AcDbArc
50
68.831551154167258
51
111.1684488458322
0
ENDSEC
0
SECTION
2
OBJECTS
0
DICTIONARY
5
C
100
AcDbDictionary
3
ACAD_GROUP
350
D
3
ACAD_MLINESTYLE
350
17
0
DICTIONARY
5
D
100
AcDbDictionary
0
DICTIONARY
5
1A
330
C
100
AcDbDictionary
0
DICTIONARY
5
17
100
AcDbDictionary
0
ENDSEC
0
EOF
